Среда, 14.04.2021, 19:37
Приветствую Вас Гость | RSS
Главная | Регистрация | Вход
christians.ucoz.ua
Разделы дневника
Христианские журналы [4]
Христианские издания
Христианские песни [18]
Текст песен, аккорды, ноты, табулатура
Форма входа

Календарь
«  Июнь 2011  »
ПнВтСрЧтПтСбВс
  12345
6789101112
13141516171819
20212223242526
27282930
Поиск
Друзья сайта
Тротуарная плитка и бетонные заборы АлексБетон Николаев

Маранафа: Библия, словарь, каталог сайтов, форум, чат и многое другое. LightRay
Христианский Топ Рейтинг Молодеж-Ка USA
Каталог христианских сайтов Для ТЕБЯ
ЧИСТЫЙ ИНТЕРНЕТ - logoSlovo.RU Христианский рейтинг ChristForum.info
Джерело ХРИСТИАНСКИЕ САЙТЫ
Твоя Библия: Библия, ответы на вопросы, христианский форум, библиотека, каталог сайтов.
BaptistTop1000.com - Top Baptist Websites
Besucherzahler ukrain women
счетчик посещений
Главная » 2011 » Июнь » 12

 

Вступление:

Am ------- C -------- F -------- Dm


E------------------------------------
B------------------------------------
G------------------------------5----
D------7------5--------0----3------
A----7------5--------3----5--------
E--5------5--------1----------------

E-------------------------------------
B------------------------------------
G-------------------------------5----
D------7------5--------0----3----3--
A----7------5--------3----5---------
E--5------5--------1-----------------


Am C F Dm Am
Отдам всю жизнь, мой Бог, Тебе...
C F Dm Am
Ведь за грех мой Ты заплатил на кресте
C F Dm Am
На третий день воскрес и теперь...
C F Dm (Am intro)
Вся жизнь моя в Твоей руке.

Тобой живу я каждый день...
Твой Дух Святой всегда во мне
Горит огонь в душе моей...
Я всем скажу о любви Тво ... Читать дальше »

Категория: Христианские песни | Просмотров: 4512 | Добавил: admin | Дата: 11.06.2011


Втупление

E||-------------------------------|
B||-------------------------------|
G||*------------------------------|
D||*--------7---6-L--6--6h-7---|
A||-------------------------------|
E||---5--5-----------------------|


 
------------------------------|
------------------------------|
------------------------------|
--------7---6-L--6--6h-7---|
------------------------------|
--5--5-----------------------|


------------------------------|
------------------------------|
------------------------------|
--------7---6-L--6--6h-7---|
--5--5-----------------------|
------------------------------|


-------------------------------||
-------------------------------||
------------------------------*||
--------7---6-L--6--6h-7---*||
--5--5-------------------------||
-------------------------------||

A
Всё, что внутри у меня
-------------- D

Мечты мои и желания< ... Читать дальше »

Просмотров: 2747 | Добавил: admin | Дата: 12.06.2011 | Комментарии (0)

 E||-----------------------------|
B||--4--4--4--4--5--5--0--0--|
G||-----------------------------|
D||-----------------------------|
A||-----------------------------|
E||-----------------------------|


--------------------------|
--2--2--2--2--2--2--2--2--|
--------------------------|
--------------------------|
--------------------------|
--------------------------|


--------------------------|
--4--4--4--4--5--5--0--0--|
--------------------------|
--------------------------|
--------------------------|
--------------------------|


--------------4--4--2--2--|
--2--2--2--2--------------|
--------------------------|
--------------------------|
--------------------------|
--------------------------|


--------------------------|
--4--4--4--4--5--5--0--0--|
--------------------------|
--------------------------|
--------------------------|
--------------------------|
... Читать дальше »
Категория: Христианские песни | Просмотров: 1600 | Добавил: admin | Дата: 12.06.2011 | Комментарии (0)

Меню сайта
Наш опрос
Оцените наш сайт
Всего ответов: 620
Статистика

Онлайн всего: 1
Гостей: 1
Пользователей: 0

Copyright christians.ucoz.ua © 2021 | Сайт управляется системой uCoz