Среда, 22.11.2017, 05:31
Приветствую Вас Гость | RSS
Главная | Регистрация | Вход
Христианский дневник
Разделы дневника
Христианские журналы [4]
Христианские издания
Христианские песни [18]
Текст песен, аккорды, ноты, табулатура
Форма входа

Календарь
«  Июнь 2011  »
ПнВтСрЧтПтСбВс
  12345
6789101112
13141516171819
20212223242526
27282930
Поиск
Друзья сайта
Тротуарная плитка и бетонные заборы АлексБетон Николаев

Маранафа: Библия, словарь, каталог сайтов, форум, чат и многое другое. LightRay
Христианский Топ Рейтинг Молодеж-Ка USA
Каталог христианских сайтов Для ТЕБЯ
ЧИСТЫЙ ИНТЕРНЕТ - logoSlovo.RU Христианский рейтинг ChristForum.info
Джерело ХРИСТИАНСКИЕ САЙТЫ
Твоя Библия: Библия, ответы на вопросы, христианский форум, библиотека, каталог сайтов.
BaptistTop1000.com - Top Baptist Websites
Besucherzahler ukrain women
счетчик посещений
Главная » 2011 » Июнь » 12 » Вступление к песни Strong Tower - Kutless табулатура
Вступление к песни Strong Tower - Kutless табулатура
22:06
 E||-----------------------------|
B||--4--4--4--4--5--5--0--0--|
G||-----------------------------|
D||-----------------------------|
A||-----------------------------|
E||-----------------------------|


--------------------------|
--2--2--2--2--2--2--2--2--|
--------------------------|
--------------------------|
--------------------------|
--------------------------|


--------------------------|
--4--4--4--4--5--5--0--0--|
--------------------------|
--------------------------|
--------------------------|
--------------------------|


--------------4--4--2--2--|
--2--2--2--2--------------|
--------------------------|
--------------------------|
--------------------------|
--------------------------|


--------------------------|
--4--4--4--4--5--5--0--0--|
--------------------------|
--------------------------|
--------------------------|
--------------------------|


--------------------------|
--2--2--2--2--2--2--2--2--|
--------------------------|
--------------------------|
--------------------------|
--------------------------|


E E E E E E E E
--------------------------|
--4--4--4--4--5--5--0--0--|
--------------------------|
--------------------------|
--------------------------|
--------------------------|


--------------4--4--2--2--|
--2--2--2--2--------------|
--------------------------|
--------------------------|
--------------------------|
--------------------------|


--------------------------|
--4--4--4--4--5--5--0--0--|
--------------------------|
--------------------------|
--------------------------|
--------------------------|



--------------------------|
--2--2--2--2--2--2--2--2--|
--------------------------|
--------------------------|
--------------------------|
--------------------------|


--------------------------|
--4--4--4--4--5--5--0--0--|
--------------------------|
--------------------------|
--------------------------|
--------------------------|


--------------4--4--2--2--||
--2--2--2--2--------------||
--------------------------||
--------------------------||
--------------------------||
--------------------------||




Kutless - Strong Tower  
Перевод песни


Когда я один в пустыне
Я потерян и забыт
И мечтаю о любви
Когда жизнь теряет смысл
Я устал от суеты
И как будто шансов нет

Я бегу к Престолу Славы
Где свобода ждет меня

Бог - Ты моя крепость
Царь моей судьбы
Святый, Всемогущий
Нужен мне лишь Ты
Бог - Ты моя крепость
И когда я слаб
Знаю - не оставишь
Я в Твоих руках

Посреди долины смерти
Несмотря на весь мой страх
Ты спасение мое
Когда буря наступает
И враги мои вокруг
Я вдруг слышу голос Твой

Я бегу к Престолу Славы
Где свобода ждет меня

Бог - Ты моя крепость
Царь моей судьбы
Святый, Всемогущий
Нужен мне лишь Ты
Бог - Ты моя крепость
И когда я слаб
Ты со мною рядом
Я ищу Лицо Твое
Я ищу Лицо Твое
Я ищу Лицо Твое

Я бегу к Престолу Славы
Где свобода ждет меня

Бог - Ты моя крепость
Царь моей судьбы
Святый, Всемогущий
Нужен мне лишь Ты
Бог - Ты моя крепость
И когда я слаб
Ты со мною рядом
Ты со мною рядом

Бог - Ты моя крепость
Царь моей судьбы
Святый, Всемогущий
Нужен мне лишь Ты
Бог - Ты моя крепость
И когда я слаб
Ты со мною рядом
Я ищу Лицо Твое


На сайте http://playninegames.com/  собраны только новые и лучшие браузерные игры. Обзоры, секреты и новости онлайн игр.
Категория: Христианские песни | Просмотров: 1275 | Добавил: admin | Рейтинг: 5.0/1 |


Всего комментариев: 0
Добавлять комментарии могут только зарегистрированные пользователи.
[ Регистрация | Вход ]
Меню сайта
Наш опрос
Оцените наш сайт
Всего ответов: 614
Статистика

Онлайн всего: 1
Гостей: 1
Пользователей: 0

Copyright christians.ucoz.ua © 2017 | Сайт управляется системой uCoz