Вторник, 12.12.2017, 19:51
Приветствую Вас Гость | RSS
Главная | Регистрация | Вход
Христианский дневник
Разделы дневника
Христианские журналы [4]
Христианские издания
Христианские песни [18]
Текст песен, аккорды, ноты, табулатура
Форма входа

Календарь
«  Ноябрь 2009  »
ПнВтСрЧтПтСбВс
      1
2345678
9101112131415
16171819202122
23242526272829
30
Поиск
Друзья сайта
Тротуарная плитка и бетонные заборы АлексБетон Николаев

Маранафа: Библия, словарь, каталог сайтов, форум, чат и многое другое. LightRay
Христианский Топ Рейтинг Молодеж-Ка USA
Каталог христианских сайтов Для ТЕБЯ
ЧИСТЫЙ ИНТЕРНЕТ - logoSlovo.RU Христианский рейтинг ChristForum.info
Джерело ХРИСТИАНСКИЕ САЙТЫ
Твоя Библия: Библия, ответы на вопросы, христианский форум, библиотека, каталог сайтов.
BaptistTop1000.com - Top Baptist Websites
Besucherzahler ukrain women
счетчик посещений
Главная » 2009 » Ноябрь » 24 » Христианские песни с аккордами В дизайне Божьем
Христианские песни с аккордами В дизайне Божьем
19:37
"Новый Иерусалим"
"Божий дизайн"
(из альбома "Ну что ты думаешь об этом?")


аккорды вступления:
Am G F F C F Am G Em F C
Am G F F C F Am G Em Am

Табулатура вступления:

1-я фраза:

|-----------------------------1--|-5---3-5-3---0-------0-------|
|---1---------0-------------1----|-6-------------1---1---------|
|-------2-------0-----2---2------|-5---------------0-----------|
|---------2-------0-----3--------|-----------------------------|
|---0----------------------------|-------------3---------------|
|-------------3-------1----------|-----------------------------|


|-----5-------8-------7-------3--|-5-----3-1---0-------0-------|
|---6-------10------8-------5----|-6-------------1---1---------|
|-5-------9-------7-------4------|-5---------------0-----------|
|--------------------------------|-----------------------------|
|--------------------------------|-------------3---------------|
|--------------------------------|-----------------------------|

2-я фраза: 3 такта играются, как в 1-й фразе, а последний такт:

|-5-----5-----5---5-----------|
|---5-----5-----5-------------|
|-----5-----5-----------------|
|-------------------------------|
|-------------------------------|
|-5-----------------------------|



-----------Dm----------------C
В дизайне Божьем нету заблуждения
G--------Am----------Dm------C
И ошибок нет. Всё продумано тонко:
--G----------------Am
Цвет волос и кожи цвет.
--F--C--Dm---------Am
И та-ам радость и свет,
------Dm--------Am
Нет голодных и бедных
-Em-------------F----G--Am G F F C F Am G Em Am
Нет больных и слабых нет.

----------Dm--------------C
В дизайне Божьем нету одиночества
-G-----------Am--------Dm----------C
Нет ненужных там. Никогда там не плачут
G----------------Am
От бессилья по ночам.
-----F--C--Dm-------Am
Там все-е любят и ждут
-------Dm--------Am
Не солгут, не изменят
Em------------F--G--Am
И друзей не предадут.

припев:
-C---Dm-------------C-Dm---------Am7
Так красок много в дизайне Бога
----------Em----------F----G
Там нету боли, нету слёз и одиночества.
-C---Dm---------C-Dm---------------Am7
Там много света и лишних нет там,
----------Em-----------F----G-------------Am
Там для тебя найдётся место если хочешь ты.


В дизайне Божьем место есть для каждого
очень ценен ты. Человек это Божье
воплощенье красоты.
Ведь, ты - тот, для кого
Бог отдал на распятье Сына Своего.

припев.


------------------------------------------


Чем кормить собаку ежедневно, особенности кормления различных пород. кормление собак - рекомендации и полезные советы по правильному кормлению.

Аккорды:
          EADGBE
C:          x32010
Dm:       xx0231
Em:        022003
F:          133211
G:          320033
Am:       x02210
Am7:      x02013

Подобрал: Major (madzor@mail.ru)
Примечание: данная подборка не даёт полное представление о гитарной партии.

Категория: Христианские песни | Просмотров: 4566 | Добавил: admin | Рейтинг: 2.0/1 |


Всего комментариев: 0
Добавлять комментарии могут только зарегистрированные пользователи.
[ Регистрация | Вход ]
Меню сайта
Наш опрос
Оцените наш сайт
Всего ответов: 615
Статистика

Онлайн всего: 1
Гостей: 1
Пользователей: 0

Copyright christians.ucoz.ua © 2017 | Сайт управляется системой uCoz