Пятница, 20.10.2017, 14:22
Приветствую Вас Гость | RSS
Главная | Регистрация | Вход
Христианский дневник
Разделы дневника
Христианские журналы [4]
Христианские издания
Христианские песни [18]
Текст песен, аккорды, ноты, табулатура
Форма входа

Календарь
«  Июнь 2011  »
ПнВтСрЧтПтСбВс
  12345
6789101112
13141516171819
20212223242526
27282930
Поиск
Друзья сайта
Тротуарная плитка и бетонные заборы АлексБетон Николаев

Маранафа: Библия, словарь, каталог сайтов, форум, чат и многое другое. LightRay
Христианский Топ Рейтинг Молодеж-Ка USA
Каталог христианских сайтов Для ТЕБЯ
ЧИСТЫЙ ИНТЕРНЕТ - logoSlovo.RU Христианский рейтинг ChristForum.info
Джерело ХРИСТИАНСКИЕ САЙТЫ
Твоя Библия: Библия, ответы на вопросы, христианский форум, библиотека, каталог сайтов.
BaptistTop1000.com - Top Baptist Websites
Besucherzahler ukrain women
счетчик посещений
Главная » 2011 » Июнь » 12 » Аккорды и табулатура Не сможет целый мир - Хиллсонг
Аккорды и табулатура Не сможет целый мир - Хиллсонг
22:49


Втупление

E||-------------------------------|
B||-------------------------------|
G||*------------------------------|
D||*--------7---6-L--6--6h-7---|
A||-------------------------------|
E||---5--5-----------------------|


 
------------------------------|
------------------------------|
------------------------------|
--------7---6-L--6--6h-7---|
------------------------------|
--5--5-----------------------|


------------------------------|
------------------------------|
------------------------------|
--------7---6-L--6--6h-7---|
--5--5-----------------------|
------------------------------|


-------------------------------||
-------------------------------||
------------------------------*||
--------7---6-L--6--6h-7---*||
--5--5-------------------------||
-------------------------------||

A
Всё, что внутри у меня
-------------- D

Мечты мои и желания

Мои надежды во всём.

A ------------------------------------ D
Ты просишь планы мои и все грядущие дни
---------------- Dmaj9
Не перечислить всего.

---- F#m ----- H5 ---- D
Ты хочешь всю жизнь мою
------ A ---------- H5
А я на меньше и не соглашусь.

Припев дисторшин
---------------------------|
---------------------------|
---------------------------|
--7----7----7--7--7--7--|
--7----7----7--7--7--7--|
--5----5----5--5--5--5--|



---------------------------|
---------------------------|
-----------------------7--|
--7----7----7--7--7--7--|
--7----7----7--7--7--5--|
--5----5----5--5--5-----|


------------------------------|
------------------------------|
--7----7--7--11----11--11--|
--7----7--7--11----11--11--|
--5----5--5---9-----9---9---|
------------------------------|


----------------------------|
----------------------------|
--------------7--7--7------|
--9----9--9--7--7--7--7--|
--9----9--9--5--5--5--7--|
--7----7--7------------5--|



--------------------------|
--------------------------|
--------------------------|
--7----7----7--7--7--7--|
--7----7----7--7--7--7--|
--5----5----5--5--5--5--|



---------------------------|
---------------------------|
---------------------------|
--7----7----7--7--7--7--|
--7----7----7--7--7--7--|
--5----5----5--5--5--5--|


-----------------------------|
-----------------------------|
--11----11----11----11----|
--11----11----11----11----|
---9-----9-----9-----9-----|
-----------------------------|


--------------------------|
--------------------------|
-------------7--7--7-----|
--9----9----7--7--7--7--|
--9----9----5--5--5--7--|
--7----7--------------5--|


A
Живет Спаситель прямо в сердце моём
-- D -------- F#m – H ------ D

О – о! Узнать Его хочу сегодня сильней.

Ведь Ты, Бог, лучшее что стало со мной
----- F#m
И не сможет целый мир
-- Hsus ------– D ----- A
Забрать Тебя из жизни моей


Соло


--12-----12------12--------------------|
--12b----12b----12b--12-10--L-------|
------------------------------------11--|
-----------------------------------------|
-----------------------------------------|
-----------------------------------------|


------------------------------------|
--------10--12--12br----10--12--|
---L--------------------------------|
------------------------------------|
------------------------------------|
------------------------------------|


-------12---------12---------------------|
---Lb------12b--------14p-12-10--12--|
------------------------------------------|
------------------------------------------|
------------------------------------------|
------------------------------------------|


-------------------------------------|
---L------------<>4--<>L---------|
-----------<>4---------------------|
------<>4--------------------------|
-------------------------------------|
-------------------------------------|


--------14---14h-17--16br-----------|
--14--------------------------17p-14-|
----------------------------------------|
----------------------------------------|
----------------------------------------|
----------------------------------------|



----------------------------------------------|
----------------------------------------------|
--17p-16p-14----14------------------------|
---------------16-----16p-14----------------|
-----------------------------16---------------|
-------------------------------17---L\--------|



-----------------------------|
-----------------------------|
-----------------------------|
-----------------------------|
--7--7--7--7--7--7--7--7--|
-----------------------------|


------------------------|
--12--------16--------|
------------------------|
------------------------|
------------------------|
------------------------|


--14--------16------|
----------------------|
----------------------|
----------------------|
----------------------|
----------------------|


--17-----19----19--21--|
--------------------------|
--------------------------|
--------------------------|
--------------------------|
--------------------------|


F#m F#m(maj7) A B

A ----- D ----------------- A
Мой Бог, навечно в жизни моей

------- D ----------------- A

Мой Бог, навечно в жизни моей


Басс


G||-----------------------|
D||*----------------------|
A||*----------------------|
E||---5----5\-------------|


----------------------|
----------------------|
----------------------|
--5----5\-------------|


----------------------|
----------------------|
--5----5\-------------|
----------------------|


-----------------------||
----------------------*||
--5----5\-------------*||
-----------------------||


-----------------------|
*----------------------|
*----------------------|
---5----5\-------------|


----------------------|
----------------------|
----------------------|
--5----5\-------------|


----------------------|
----------------------|
--5----5\-------------|
----------------------|


----------------------|
----------------------|
--5----5\-------------|
----------------------|


----------------------|
----------------------|
----------------------|
--5----5\-------------|


----------------------|
----------------------|
----------------------|
--5----5\-------------|


----------------------|
----------------------|
--5----5\-------------|
----------------------|


----------------------|
----------------------|
--5----5\-------------|
----------------------|


----------------------|
----------------------|
--5----5--------------|
----------------------|


-------------------------|
-------------------------|
-------------------------|
--5--5--5---7--7--7----|


----------------------|
----------------------|
--5----5--------------|
----------------------|


--------------------------|
--------------------------|
--------------------------|
--5--5--5--5--7--7--7--7--|


--------------------------|
--------------------------|
--------------------------|
--5--5--5--5--5--5--5--5--|

 
--------------------------|
--------------------------|
-----------------------5--|
--5--5--5--5--5--5--5-----|


---------------------------|
---------------------------|
--5--5--5--5S--9--9--9--9--|
---------------------------|


--------------------------|
--------------------------|
--------------5--5--5--0--|
--7--7--7--7--------------|


----------------------------|
----------7-----------------|
--0--0--<>0--0--0--0--5--4--|
----------------------------|


--------------------------|
--------------------------|
--0--0--0--0--0--0--0--0--|
--------------------------|


--------------------------|
--------------------------|
--9-----9-----9-----9-----|
--------------------------|

 
--------------------------|
--------------------------|
--------------5--5--5-----|
--7-----7--------------5--|


----------------------|
----------------------|
----------------------|
--5----5\-------------|


----------------------|
----------------------|
----------------------|
--5----5\-------------|


----------------------|
----------------------|
--5----5\-------------|
----------------------|


-----------------------||
----------------------*||
--5----5\-------------*||
-----------------------||


--------------------------|
--------------------------|
--------------------------|
--5--5--5--5--5--5--5--5--|

 
--------------------------|
--------------------------|
-----------------------5--|
--5--5--5--5--5--5--5-----|


---------------------------|
---------------------------|
--5--5--5--5S--9--9--9--9--|
---------------------------|


--------------------------|
--------------------------|
--------------5--5--5--0--|
--7--7--7--7--------------|


----------------------------|
----------7-----------------|
--0--0--<>0--0--0--0--5--4--|
----------------------------|


--------------------------|
--------------------------|
--0--0--0--0--0--0--0--0--|
--------------------------|


--------------------------|
--------------------------|
--9-----9-----9-----9-----|
--------------------------|


--------------------------|
--------------------------|
--------------5--5--5-----|
--7-----7--------------5--|


-------------------|-------------------|
-------------------|-------------------|
-------------------|-------------------|
--L----------------|--L----------------|


----------------------------------|
----------------------------------|
----------------------------------|
--5S--17--17--17--17--17--17--17--|

 
----------------------------------------|
----------------------------------------|
----------------------------------------|
--17--17--17--17--17--17--17--17--|


------------------------|-------|-------|
------------------------|-------|-------|
------------------------|-------|-------|
--17\-------------------|-------|-------|


-------|-------------------------------|
-------|-------------------------------|
-------|--------------------------12--|
-------|--14----14----14----14------|


-------------------------------|
-------------------------------|
-------------------------------|
--13----13----13----13S----|


-----------------------|
-----------------------|
-----------------------|
--5----5----5----5----|


-------------------------------|
-------------------------------|
-------------------------------|
--7--7--7--7--7--7--7--7S--|


----------------------------------------|
----------------------------------------|
----------------------------------------|
--18--19--19--19--19--19--19--19--|


----------------------------------------|
----------------------------------------|
----------------------------------------|
--19--19--19--19--19--19--19S--5--|


--------------------------|
--------------------------|
--------------------------|
--5--5--5--5--5--5--5--5--|


-----------------------------|
-----------------------------|
-------------------------5--|
--5--5--5--5--5--5--5-----|


-------------------------------|
-------------------------------|
--5--5--5--5S--9--9--9--9--|
-------------------------------|


----------------------------|
----------------------------|
---------------5--5--5--0--|
--7--7--7--7---------------|


---------------------------------|
----------7----------------------|
--0--0--<>0--0--0--0--5--4--|
---------------------------------|


-----------------------------|
-----------------------------|
--0--0--0--0--0--0--0--0--|
-----------------------------|

----------------------------|
----------------------------|
--9-----9-----9-----9-----|
----------------------------|


---------------------------|
---------------------------|
--------------5--5--5-----|
--7-----7--------------5--|


------------------------------------|
----------7-------------7----------|
--0--0--<>0--0--0--0--<>0--0--|
------------------------------------|


---------------------------------|
----------7----------------------|
--0--0--<>0--0--5--5--5--0--|
---------------------------------|


------------------------------------|
----------7-------------7----------|
--0--0--<>0--0--0--0--<>0--0--|
------------------------------------|


---------------------------------|
----------7----------------------|
--0--0--<>0--0--5--5--5--0--|
---------------------------------|


-----------------------||
-----------------------||
--<>0----------------||
-----------------------||



uration Legend
---------------
W - whole
H - half
Q - quarter
E - 8th
S - 16th
T - 32nd
X - 64th
. - note dotted
|-n-| - n-tuplets


Tablature Legend
----------------
L - tied note
x - dead note
g - grace note
(n) - ghost note
> - accentuded note
NH - natural harmonic
AH - artificial harmonic
TH - tapped harmonic
SH - semi harmonic
PH - pitch harmonic
h - hammer on
p - pull off
b - bend
br - bendRelease
pb - preBend
pbr - preBendRelease
brb - bendReleaseBend
\n/ - tremolo bar dip
\n - tremolo bar dive
-/n - tremolo bar Release up
/n\ - tremolo bar inverted dip
/n - tremolo bar return
-\n - tremolo bar Release down
S - shift slide
s - legato slide
/ - slide into from below or out of upwards
\ - slide into from above or out of downwards
~ - vibrato
W - wide vibrato
tr - trill
TP - tremolo picking
T - tapping
S - slap
P - pop
< - fade in
^ - brush up
v - brush down

Просмотров: 2198 | Добавил: admin | Рейтинг: 0.0/0 |


Всего комментариев: 0
Добавлять комментарии могут только зарегистрированные пользователи.
[ Регистрация | Вход ]
Меню сайта
Наш опрос
Оцените наш сайт
Всего ответов: 614
Статистика

Онлайн всего: 1
Гостей: 1
Пользователей: 0

Copyright christians.ucoz.ua © 2017 | Сайт управляется системой uCoz