Пятница, 22.09.2017, 15:31
Приветствую Вас Гость | RSS
Главная | Регистрация | Вход
Христианский дневник
Разделы дневника
Христианские журналы [4]
Христианские издания
Христианские песни [18]
Текст песен, аккорды, ноты, табулатура
Форма входа

Календарь
«  Июнь 2011  »
ПнВтСрЧтПтСбВс
  12345
6789101112
13141516171819
20212223242526
27282930
Поиск
Друзья сайта
Тротуарная плитка и бетонные заборы АлексБетон Николаев

Маранафа: Библия, словарь, каталог сайтов, форум, чат и многое другое. LightRay
Христианский Топ Рейтинг Молодеж-Ка USA
Каталог христианских сайтов Для ТЕБЯ
ЧИСТЫЙ ИНТЕРНЕТ - logoSlovo.RU Христианский рейтинг ChristForum.info
Джерело ХРИСТИАНСКИЕ САЙТЫ
Твоя Библия: Библия, ответы на вопросы, христианский форум, библиотека, каталог сайтов.
BaptistTop1000.com - Top Baptist Websites
Besucherzahler ukrain women
счетчик посещений
Главная » 2011 » Июнь » 12 » Аккорды и табулатура к песни Пожар - Хиллсонг
Аккорды и табулатура к песни Пожар - Хиллсонг
23:22

 

Вступление:

Am ------- C -------- F -------- Dm


E------------------------------------
B------------------------------------
G------------------------------5----
D------7------5--------0----3------
A----7------5--------3----5--------
E--5------5--------1----------------

E-------------------------------------
B------------------------------------
G-------------------------------5----
D------7------5--------0----3----3--
A----7------5--------3----5---------
E--5------5--------1-----------------


Am C F Dm Am
Отдам всю жизнь, мой Бог, Тебе...
C F Dm Am
Ведь за грех мой Ты заплатил на кресте
C F Dm Am
На третий день воскрес и теперь...
C F Dm (Am intro)
Вся жизнь моя в Твоей руке.

Тобой живу я каждый день...
Твой Дух Святой всегда во мне
Горит огонь в душе моей...
Я всем скажу о любви Твоей.

C G
Чем ближе к Тебе...
Am F
Горю всё сильнее...
C G
Всей жизнью моей...
Am F
Стремлюсь к Тебе.


И не нужно мне дыханье моё
Если внутри меня тлеет черный пепел.
Я не хочу влюблять себя день за днём
Отдавая за миг наслаждения вечность.

Пусть внутри меня горит Твой крест
Ты свет, Ты любовь, Ты внутри меня есть
Зажгись во мне, гори во мне
И пусть Твой пожар внутри меня видят все.


Чем ближе к Тебе...
Горю всё сильнее...
Всей жизнью моей...
Стремлюсь к Тебе.

 

 

 

Соло:

E----12----10-----8----7-------12----10-----8----5------
B----12----10----10----8-------12----10----10----5-----
G-----------------------------------------------------------

Категория: Христианские песни | Просмотров: 4036 | Добавил: admin | Рейтинг: 0.0/0 |


Всего комментариев: 1
1  
соло классное biggrin

Добавлять комментарии могут только зарегистрированные пользователи.
[ Регистрация | Вход ]
Меню сайта
Наш опрос
Оцените наш сайт
Всего ответов: 614
Статистика

Онлайн всего: 1
Гостей: 1
Пользователей: 0

Copyright christians.ucoz.ua © 2017 | Сайт управляется системой uCoz