Пятница, 28.07.2017, 14:47
Приветствую Вас Гость | RSS
Главная | Регистрация | Вход
Христианский дневник
Разделы дневника
Христианские журналы [4]
Христианские издания
Христианские песни [18]
Текст песен, аккорды, ноты, табулатура
Форма входа

Календарь
«  Июнь 2011  »
ПнВтСрЧтПтСбВс
  12345
6789101112
13141516171819
20212223242526
27282930
Поиск
Друзья сайта
Тротуарная плитка и бетонные заборы АлексБетон Николаев

Маранафа: Библия, словарь, каталог сайтов, форум, чат и многое другое. LightRay
Христианский Топ Рейтинг Молодеж-Ка USA
Каталог христианских сайтов Для ТЕБЯ
ЧИСТЫЙ ИНТЕРНЕТ - logoSlovo.RU Христианский рейтинг ChristForum.info
Джерело ХРИСТИАНСКИЕ САЙТЫ
Твоя Библия: Библия, ответы на вопросы, христианский форум, библиотека, каталог сайтов.
BaptistTop1000.com - Top Baptist Websites
Besucherzahler ukrain women
счетчик посещений
Главная » 2011 » Июнь » 13 » Аккорды и табулатура к песне Влюбляюсь в Тебя - Хиллсонг
Аккорды и табулатура к песне Влюбляюсь в Тебя - Хиллсонг
23:33


Вступление:

Em7 C D Dsus G D2/F#

E-----------|-----|----------2/3--|-3---|-------|------------|----|
B-------3--|-3---|--------3------|-3---|-3-----|------------|-3--|
G-------0--|-----|------2--------|-----|-2------|------------|-0--|
D----------|-2---|-0-------------|-----|--------|-------0/2--|----|
A----2-----|-3---|---------------|-----|--------|--0/2-------|----|
E-0--------|------|---------------|-3---|-2-----|------------|----|


C Dsus C

E-------|-3/2---------||--0----2--|----------0-----------------|
B-3-----|------3------||----------|-------2-----2--------------|
G-0-----|---------2---||----------|----0-----------0-----------|
D-------|--------------||--2----0--|-----------------------------|
A-3-----|--------------||----------|-3---------------------------|
E--------|--------------||----------|------------------------------|

Em C D G D/F# Em
Лишь Тебе принадлежит любовь мо - я
C D
Доказать я это хочу
Em C D Em D C
Всей душой к Тебе, мой Бог, стремлюсь
D
Влюбляюсь все больше в Тебя, Иисус

Em C D G D/F#
Ты взял сердце моё
Em C D G D/F#
Завоевал, пленил его
Захватил Ты всю жизнь мою
Влюбляюсь,
Все больше в Тебя, Иисус

Ты и я, вовек будем вместе
И ничто нас не разлучит
Я с каждым днем, сильнее Тебя люблю

Влюбляюсь все больше в Тебя, Иисус


Церковь "Хвала и поклонение" проводит изучение Библии, библейская школа смотреть онлайн уроки.
Категория: Христианские песни | Просмотров: 5287 | Добавил: admin | Рейтинг: 4.8/4 |


Всего комментариев: 2
2  
класс

1  
flower surprised biggrin biggrin biggrin happy smile wacko wink tongue спасибо

Добавлять комментарии могут только зарегистрированные пользователи.
[ Регистрация | Вход ]
Меню сайта
Наш опрос
Оцените наш сайт
Всего ответов: 614
Статистика

Онлайн всего: 1
Гостей: 1
Пользователей: 0

Copyright christians.ucoz.ua © 2017 | Сайт управляется системой uCoz